ISO-10303-21;
HEADER;
FILE_DESCRIPTION (( 'STEP AP203' ),
    '1' );
FILE_NAME ('B270-RNDF-25.4-0.5.STEP',
    '2021-01-05T01:23:15',
    ( '' ),
    ( '' ),
    'SwSTEP 2.0',
    'SolidWorks 2020',
    '' );
FILE_SCHEMA (( 'CONFIG_CONTROL_DESIGN' ));
ENDSEC;

DATA;
#1 = DIRECTION ( 'NONE',  ( 0.000000000000000000, 0.000000000000000000, 1.000000000000000000 ) ) ;
#2 = SECURITY_CLASSIFICATION_LEVEL ( 'unclassified' ) ;
#3 = DESIGN_CONTEXT ( 'detailed design', #52, 'design' ) ;
#4 = CIRCLE ( 'NONE', #72, 12.69999999999999929 ) ;
#5 = CARTESIAN_POINT ( 'NONE',  ( -1.187907395172932594E-15, 0.000000000000000000, 0.000000000000000000 ) ) ;
#6 = EDGE_LOOP ( 'NONE', ( #74, #172 ) ) ;
#7 = AXIS2_PLACEMENT_3D ( 'NONE', #69, #123, #1 ) ;
#8 = CC_DESIGN_DATE_AND_TIME_ASSIGNMENT ( #33, #166, ( #30 ) ) ;
#9 = PERSON_AND_ORGANIZATION ( #144, #65 ) ;
#10 =( NAMED_UNIT ( * ) PLANE_ANGLE_UNIT ( ) SI_UNIT ( $, .RADIAN. ) );
#11 = AXIS2_PLACEMENT_3D ( 'NONE', #152, #92, #46 ) ;
#12 = PERSON_AND_ORGANIZATION ( #144, #65 ) ;
#13 = CC_DESIGN_SECURITY_CLASSIFICATION ( #30, ( #50 ) ) ;
#14 = CALENDAR_DATE ( 2021, 5, 1 ) ;
#15 = EDGE_LOOP ( 'NONE', ( #104, #145, #126, #20 ) ) ;
#16 = CC_DESIGN_APPROVAL ( #164, ( #19 ) ) ;
#17 = LINE ( 'NONE', #53, #84 ) ;
#18 = VERTEX_POINT ( 'NONE', #171 ) ;
#19 = PRODUCT_DEFINITION ( 'UNKNOWN', '', #50, #3 ) ;
#20 = ORIENTED_EDGE ( 'NONE', *, *, #129, .F. ) ;
#21 = CC_DESIGN_APPROVAL ( #110, ( #50 ) ) ;
#22 = ORIENTED_EDGE ( 'NONE', *, *, #120, .T. ) ;
#23 = CARTESIAN_POINT ( 'NONE',  ( -1.187907395172932594E-15, 0.000000000000000000, 0.000000000000000000 ) ) ;
#24 = COORDINATED_UNIVERSAL_TIME_OFFSET ( 8, 0, .AHEAD. ) ;
#25 = APPROVAL_STATUS ( 'not_yet_approved' ) ;
#26 = APPROVAL_PERSON_ORGANIZATION ( #151, #164, #153 ) ;
#27 = PERSON_AND_ORGANIZATION ( #144, #65 ) ;
#28 = CC_DESIGN_PERSON_AND_ORGANIZATION_ASSIGNMENT ( #27, #40, ( #135 ) ) ;
#29 = FACE_OUTER_BOUND ( 'NONE', #139, .T. ) ;
#30 = SECURITY_CLASSIFICATION ( '', '', #2 ) ;
#31 = CC_DESIGN_PERSON_AND_ORGANIZATION_ASSIGNMENT ( #9, #106, ( #19 ) ) ;
#32 = COORDINATED_UNIVERSAL_TIME_OFFSET ( 8, 0, .AHEAD. ) ;
#33 = DATE_AND_TIME ( #114, #124 ) ;
#34 = DIRECTION ( 'NONE',  ( -1.000000000000000000, -0.000000000000000000, -0.000000000000000000 ) ) ;
#35 = DIRECTION ( 'NONE',  ( -1.000000000000000000, -0.000000000000000000, -0.000000000000000000 ) ) ;
#36 = CLOSED_SHELL ( 'NONE', ( #142, #146, #64, #62 ) ) ;
#37 = CYLINDRICAL_SURFACE ( 'NONE', #7, 12.69999999999999929 ) ;
#38 = VERTEX_POINT ( 'NONE', #156 ) ;
#39 = CIRCLE ( 'NONE', #60, 12.69999999999999929 ) ;
#40 = PERSON_AND_ORGANIZATION_ROLE ( 'design_owner' ) ;
#41 = DIRECTION ( 'NONE',  ( -1.000000000000000000, -0.000000000000000000, -0.000000000000000000 ) ) ;
#42 = PERSON_AND_ORGANIZATION ( #144, #65 ) ;
#43 = CC_DESIGN_DATE_AND_TIME_ASSIGNMENT ( #119, #161, ( #19 ) ) ;
#44 = PERSON_AND_ORGANIZATION ( #144, #65 ) ;
#45 = AXIS2_PLACEMENT_3D ( 'NONE', #121, #41, #162 ) ;
#46 = DIRECTION ( 'NONE',  ( 1.000000000000000000, 0.000000000000000000, 0.000000000000000000 ) ) ;
#47 = ADVANCED_BREP_SHAPE_REPRESENTATION ( 'B270-RNDF-25.4-0.5', ( #131, #11 ), #100 ) ;
#48 = PERSON_AND_ORGANIZATION ( #144, #65 ) ;
#49 = VERTEX_POINT ( 'NONE', #66 ) ;
#50 = PRODUCT_DEFINITION_FORMATION_WITH_SPECIFIED_SOURCE ( 'ANY', '', #135, .NOT_KNOWN. ) ;
#51 = AXIS2_PLACEMENT_3D ( 'NONE', #23, #83, #111 ) ;
#52 = APPLICATION_CONTEXT ( 'configuration controlled 3d designs of mechanical parts and assemblies' ) ;
#53 = CARTESIAN_POINT ( 'NONE',  ( 0.000000000000000000, 0.000000000000000000, 12.69999999999999929 ) ) ;
#54 = DIRECTION ( 'NONE',  ( 0.000000000000000000, 0.000000000000000000, -1.000000000000000000 ) ) ;
#55 = LOCAL_TIME ( 9, 23, 15.00000000000000000, #24 ) ;
#56 = APPROVAL_STATUS ( 'not_yet_approved' ) ;
#57 = DATE_AND_TIME ( #174, #55 ) ;
#58 = COORDINATED_UNIVERSAL_TIME_OFFSET ( 8, 0, .AHEAD. ) ;
#59 = DIRECTION ( 'NONE',  ( -1.000000000000000000, -0.000000000000000000, -0.000000000000000000 ) ) ;
#60 = AXIS2_PLACEMENT_3D ( 'NONE', #98, #35, #127 ) ;
#61 = PLANE ( 'NONE',  #78 ) ;
#62 = ADVANCED_FACE ( 'NONE', ( #118 ), #79, .F. ) ;
#63 = ORIENTED_EDGE ( 'NONE', *, *, #73, .T. ) ;
#64 = ADVANCED_FACE ( 'NONE', ( #141 ), #61, .F. ) ;
#65 = ORGANIZATION ( 'UNSPECIFIED', 'UNSPECIFIED', '' ) ;
#66 = CARTESIAN_POINT ( 'NONE',  ( -1.187907395172932594E-15, 1.555301434917138433E-15, -12.69999999999999929 ) ) ;
#67 = VERTEX_POINT ( 'NONE', #130 ) ;
#68 = CARTESIAN_POINT ( 'NONE',  ( 1.999999999999998224, 0.000000000000000000, 0.000000000000000000 ) ) ;
#69 = CARTESIAN_POINT ( 'NONE',  ( 0.000000000000000000, 0.000000000000000000, 0.000000000000000000 ) ) ;
#70 = COORDINATED_UNIVERSAL_TIME_OFFSET ( 8, 0, .AHEAD. ) ;
#71 = APPROVAL_PERSON_ORGANIZATION ( #44, #110, #160 ) ;
#72 = AXIS2_PLACEMENT_3D ( 'NONE', #68, #59, #108 ) ;
#73 = EDGE_CURVE ( 'NONE', #67, #38, #39, .T. ) ;
#74 = ORIENTED_EDGE ( 'NONE', *, *, #167, .F. ) ;
#75 = APPROVAL_DATE_TIME ( #95, #87 ) ;
#76 = DIRECTION ( 'NONE',  ( -1.000000000000000000, -0.000000000000000000, -0.000000000000000000 ) ) ;
#77 = APPROVAL_ROLE ( '' ) ;
#78 = AXIS2_PLACEMENT_3D ( 'NONE', #113, #169, #115 ) ;
#79 = PLANE ( 'NONE',  #159 ) ;
#80 = DATE_AND_TIME ( #82, #128 ) ;
#81 = APPLICATION_PROTOCOL_DEFINITION ( 'international standard', 'config_control_design', 1994, #105 ) ;
#82 = CALENDAR_DATE ( 2021, 5, 1 ) ;
#83 = DIRECTION ( 'NONE',  ( -1.000000000000000000, -0.000000000000000000, -0.000000000000000000 ) ) ;
#84 = VECTOR ( 'NONE', #76, 1000.000000000000000 ) ;
#85 = DIRECTION ( 'NONE',  ( 0.000000000000000000, 0.000000000000000000, 1.000000000000000000 ) ) ;
#86 = CARTESIAN_POINT ( 'NONE',  ( 0.000000000000000000, 1.555301434917138433E-15, -12.69999999999999929 ) ) ;
#87 = APPROVAL ( #155, 'UNSPECIFIED' ) ;
#88 = PRODUCT_RELATED_PRODUCT_CATEGORY ( 'detail', '', ( #135 ) ) ;
#89 = ORIENTED_EDGE ( 'NONE', *, *, #150, .T. ) ;
#90 = ORIENTED_EDGE ( 'NONE', *, *, #138, .F. ) ;
#91 = CC_DESIGN_APPROVAL ( #87, ( #30 ) ) ;
#92 = DIRECTION ( 'NONE',  ( 0.000000000000000000, 0.000000000000000000, 1.000000000000000000 ) ) ;
#93 =( LENGTH_UNIT ( ) NAMED_UNIT ( * ) SI_UNIT ( .MILLI., .METRE. ) );
#94 = CC_DESIGN_PERSON_AND_ORGANIZATION_ASSIGNMENT ( #42, #136, ( #50 ) ) ;
#95 = DATE_AND_TIME ( #14, #163 ) ;
#96 = CIRCLE ( 'NONE', #51, 12.69999999999999929 ) ;
#97 = UNCERTAINTY_MEASURE_WITH_UNIT (LENGTH_MEASURE( 1.000000000000000082E-05 ), #93, 'distance_accuracy_value', 'NONE');
#98 = CARTESIAN_POINT ( 'NONE',  ( 1.999999999999998224, 0.000000000000000000, 0.000000000000000000 ) ) ;
#99 = SHAPE_DEFINITION_REPRESENTATION ( #107, #47 ) ;
#100 =( GEOMETRIC_REPRESENTATION_CONTEXT ( 3 ) GLOBAL_UNCERTAINTY_ASSIGNED_CONTEXT ( ( #97 ) ) GLOBAL_UNIT_ASSIGNED_CONTEXT ( ( #93, #10, #137 ) ) REPRESENTATION_CONTEXT ( 'NONE', 'WORKASPACE' ) );
#101 = DIRECTION ( 'NONE',  ( 1.000000000000000000, 0.000000000000000000, 0.000000000000000000 ) ) ;
#102 = CC_DESIGN_PERSON_AND_ORGANIZATION_ASSIGNMENT ( #12, #125, ( #50 ) ) ;
#103 = DIRECTION ( 'NONE',  ( -1.000000000000000000, -0.000000000000000000, -0.000000000000000000 ) ) ;
#104 = ORIENTED_EDGE ( 'NONE', *, *, #167, .T. ) ;
#105 = APPLICATION_CONTEXT ( 'configuration controlled 3d designs of mechanical parts and assemblies' ) ;
#106 = PERSON_AND_ORGANIZATION_ROLE ( 'creator' ) ;
#107 = PRODUCT_DEFINITION_SHAPE ( 'NONE', 'NONE',  #19 ) ;
#108 = DIRECTION ( 'NONE',  ( 0.000000000000000000, 0.000000000000000000, 1.000000000000000000 ) ) ;
#109 = APPROVAL_DATE_TIME ( #57, #110 ) ;
#110 = APPROVAL ( #56, 'UNSPECIFIED' ) ;
#111 = DIRECTION ( 'NONE',  ( 0.000000000000000000, 0.000000000000000000, 1.000000000000000000 ) ) ;
#112 = PERSON_AND_ORGANIZATION ( #144, #65 ) ;
#113 = CARTESIAN_POINT ( 'NONE',  ( 1.999999999999999112, 12.69999999999999929, 0.000000000000000000 ) ) ;
#114 = CALENDAR_DATE ( 2021, 5, 1 ) ;
#115 = DIRECTION ( 'NONE',  ( -0.000000000000000000, 0.000000000000000000, 1.000000000000000000 ) ) ;
#116 = LOCAL_TIME ( 9, 23, 15.00000000000000000, #70 ) ;
#117 = ORIENTED_EDGE ( 'NONE', *, *, #129, .T. ) ;
#118 = FACE_OUTER_BOUND ( 'NONE', #158, .T. ) ;
#119 = DATE_AND_TIME ( #173, #116 ) ;
#120 = EDGE_CURVE ( 'NONE', #49, #18, #175, .T. ) ;
#121 = CARTESIAN_POINT ( 'NONE',  ( 0.000000000000000000, 0.000000000000000000, 0.000000000000000000 ) ) ;
#122 = CC_DESIGN_PERSON_AND_ORGANIZATION_ASSIGNMENT ( #112, #168, ( #30 ) ) ;
#123 = DIRECTION ( 'NONE',  ( -1.000000000000000000, -0.000000000000000000, -0.000000000000000000 ) ) ;
#124 = LOCAL_TIME ( 9, 23, 15.00000000000000000, #165 ) ;
#125 = PERSON_AND_ORGANIZATION_ROLE ( 'design_supplier' ) ;
#126 = ORIENTED_EDGE ( 'NONE', *, *, #150, .F. ) ;
#127 = DIRECTION ( 'NONE',  ( 0.000000000000000000, 0.000000000000000000, 1.000000000000000000 ) ) ;
#128 = LOCAL_TIME ( 9, 23, 15.00000000000000000, #58 ) ;
#129 = EDGE_CURVE ( 'NONE', #38, #18, #17, .T. ) ;
#130 = CARTESIAN_POINT ( 'NONE',  ( 1.999999999999998224, 1.555301434917138433E-15, -12.69999999999999929 ) ) ;
#131 = MANIFOLD_SOLID_BREP ( 'Ðý×', #36 ) ;
#132 = CARTESIAN_POINT ( 'NONE',  ( -5.939536975864662969E-16, 12.69999999999999929, 0.000000000000000000 ) ) ;
#133 = APPROVAL_DATE_TIME ( #80, #164 ) ;
#134 = CYLINDRICAL_SURFACE ( 'NONE', #45, 12.69999999999999929 ) ;
#135 = PRODUCT ( 'B270-RNDF-25.4-0.5', 'B270-RNDF-25.4-0.5', '', ( #149 ) ) ;
#136 = PERSON_AND_ORGANIZATION_ROLE ( 'creator' ) ;
#137 =( NAMED_UNIT ( * ) SI_UNIT ( $, .STERADIAN. ) SOLID_ANGLE_UNIT ( ) );
#138 = EDGE_CURVE ( 'NONE', #67, #49, #170, .T. ) ;
#139 = EDGE_LOOP ( 'NONE', ( #90, #63, #117, #143 ) ) ;
#140 = AXIS2_PLACEMENT_3D ( 'NONE', #5, #34, #85 ) ;
#141 = FACE_OUTER_BOUND ( 'NONE', #6, .T. ) ;
#142 = ADVANCED_FACE ( 'NONE', ( #157 ), #37, .T. ) ;
#143 = ORIENTED_EDGE ( 'NONE', *, *, #120, .F. ) ;
#144 = PERSON ( 'UNSPECIFIED', 'UNSPECIFIED', 'UNSPECIFIED', ('UNSPECIFIED'), ('UNSPECIFIED'), ('UNSPECIFIED') ) ;
#145 = ORIENTED_EDGE ( 'NONE', *, *, #138, .T. ) ;
#146 = ADVANCED_FACE ( 'NONE', ( #29 ), #134, .T. ) ;
#147 = VECTOR ( 'NONE', #103, 1000.000000000000000 ) ;
#148 = APPLICATION_PROTOCOL_DEFINITION ( 'international standard', 'config_control_design', 1994, #52 ) ;
#149 = MECHANICAL_CONTEXT ( 'NONE', #105, 'mechanical' ) ;
#150 = EDGE_CURVE ( 'NONE', #18, #49, #96, .T. ) ;
#151 = PERSON_AND_ORGANIZATION ( #144, #65 ) ;
#152 = CARTESIAN_POINT ( 'NONE',  ( 0.000000000000000000, 0.000000000000000000, 0.000000000000000000 ) ) ;
#153 = APPROVAL_ROLE ( '' ) ;
#154 = APPROVAL_PERSON_ORGANIZATION ( #48, #87, #77 ) ;
#155 = APPROVAL_STATUS ( 'not_yet_approved' ) ;
#156 = CARTESIAN_POINT ( 'NONE',  ( 1.999999999999998224, 0.000000000000000000, 12.69999999999999929 ) ) ;
#157 = FACE_OUTER_BOUND ( 'NONE', #15, .T. ) ;
#158 = EDGE_LOOP ( 'NONE', ( #89, #22 ) ) ;
#159 = AXIS2_PLACEMENT_3D ( 'NONE', #132, #101, #54 ) ;
#160 = APPROVAL_ROLE ( '' ) ;
#161 = DATE_TIME_ROLE ( 'creation_date' ) ;
#162 = DIRECTION ( 'NONE',  ( 0.000000000000000000, 0.000000000000000000, 1.000000000000000000 ) ) ;
#163 = LOCAL_TIME ( 9, 23, 15.00000000000000000, #32 ) ;
#164 = APPROVAL ( #25, 'UNSPECIFIED' ) ;
#165 = COORDINATED_UNIVERSAL_TIME_OFFSET ( 8, 0, .AHEAD. ) ;
#166 = DATE_TIME_ROLE ( 'classification_date' ) ;
#167 = EDGE_CURVE ( 'NONE', #38, #67, #4, .T. ) ;
#168 = PERSON_AND_ORGANIZATION_ROLE ( 'classification_officer' ) ;
#169 = DIRECTION ( 'NONE',  ( -1.000000000000000000, 0.000000000000000000, -0.000000000000000000 ) ) ;
#170 = LINE ( 'NONE', #86, #147 ) ;
#171 = CARTESIAN_POINT ( 'NONE',  ( -1.187907395172932594E-15, 0.000000000000000000, 12.69999999999999929 ) ) ;
#172 = ORIENTED_EDGE ( 'NONE', *, *, #73, .F. ) ;
#173 = CALENDAR_DATE ( 2021, 5, 1 ) ;
#174 = CALENDAR_DATE ( 2021, 5, 1 ) ;
#175 = CIRCLE ( 'NONE', #140, 12.69999999999999929 ) ;
ENDSEC;
END-ISO-10303-21;
